MUSICREPORT.SK

20/11/2009

Gitarové konzervatórium 6

Filed under: Konzervatórium, Návody, Všetko — Tags: , , — Spyros @ 8:08

Chcete se naučiť hrať na gitaru? Internetová televízia iDNES.tv ponúka pravidelne jeden diel výukového seriálu. Internetové konzervatórium vás odľahčenou formou zoznámi s hrou na gitaru. Budete sa zaoberať aj technikou hry a hudobnou teóriou.

Struny

Akordy

Doprovodná hra (Power Chords)

Muting (tlmenie)

Opakovanie

19/11/2009

Gitarová hlava Marshall MA50H 50w

Filed under: Hudobniny, Novinky - Aparatúra, Všetko — Tags: , , , — StyriOci @ 1:09

Marshall myslí aj na svojich priaznivcov, ktorí chcú mať zvuk lampového “Maršála”, ale nemôžu si dovoliť zaobstarať niektorý z už legendárnych modelov tejto britskej firmy.

V segmente tzv. “Entry level”, čiže pre začiatočníkov, si Marshall už vybudoval meno tranzistorovými aparátmi zo série MG, či AVT sériou, ktoré majú vo svojom predzosilovači jednu malú lampu ECC83(12AX7). Teraz však do tohto segmentu prinášajú aj celolampové modely série MA, kde nájdeme 50W a 100W kombá a hlavy.

Preamp obsahuje 2xECC83 a koncový stupeň 1xECC83 a 2(4)xEL34. Kombá sú osadené buď jedným alebo dvoma Marshallom navrhnutými reprákmi AX-75, ktoré možno nájsť aj v reproboxoch k tejto sérii.

Zosilovače majú po dva kanály, Clean a Overdrive so samostatnými korekciami. Overdrive kanál disponuje boostom pre zväčšenie skreslenia. Ďalšou zaujímavou funkciou, ktorou disponuje Overdrive kanál je potenciometer “Crunch Balance“, ktorý umožnuje nastaviť pomer medzi velkosťou skreslenia pri zapnutej a vypnutej funkcii Boost.

K ďalšej výbave zosilovačov patria klasické ovládače spätnej vazby Presence a Resonance, efektová slučka a pružinový reverb. Hlavy majú polopriesvitnú prednú stenu aby sa šťastný majiteľ mohol pri hre pokochať žiarou nažhavených lámp.

17/11/2009

Fínski melancholici SWALLOW THE SUN v Bratislave!

Filed under: Hudba, Nové koncerty, Všetko — Tags: , , , — StyriOci @ 1:59

Fínska melodika, podmanivá atmosféra a melanchólia v bratislavskom klube Randal. Tri rozdielne skupiny, tri rozdielne formy vyjadrenia, jedna obrovská aura, ktorá ich spája. Aj takto by sa dal charakterizovať večer na čele s poprednými a populárnymi zástupcami svetovej doommetalovej scény – SWALLOW THE SUN.

Tí prídu do Bratislavy predstaviť svoj nový album „New Moon“ a odohrať vôbec prvy koncert na Slovensku. Citlivá kombinácia melodického death metalu s doomovými náladami a pomalým tempom už teraz sľubuje intenzívny zážitok. Ak ste si ich nechali ujsť na festivale Brutal Assault kvôli intenzívnemu dažďu, SWALLOW THE SUN vám ponúkajú druhú šancu tento omyl napraviť. Ich krajania INSOMNIUM prichádzajú na Slovensko s rovnakým posolstvom. Novinka „Across the Dark“, ktorú vydali u Candlelight Records, je nasiaknutá podobne magickou atmosférou ako ich predchádzajúce nahrávky a podobné vyžarovanie sa od nich dá čakať aj naživo. INSOMNIUM nehrajú obyčajný melodic death metal, disponujú akousi nadhodnotou a aj preto je ich vystúpenie spájané s veľkými očakávaniami. Trojlístok zahraničných mien dotvárajú OMNIUM GATHERUM, rozhodne však nie sú len kapelou do počtu. Aj oni svoju hudbu stavajú na vkusnej melodike, osobných pocitoch a skvele zapadnú do atmosféry koncertu. To isté sa dá povedať aj o otváracej skupine večera, darkmetalových GALADRIEL. Žijúca legenda slovenského metalu má ešte stále čo povedať a aj vďaka svojim profesionálnym vystúpeniam patrí medzi to najlepšie, čo z tunajšej scény vzišlo.

Ak si nechcete nechať ujsť ani jednu z uvedených kapiel, príďte 15. decembra do Randal clubu. Lístky na toto podujatie dostanete v hodnote 12 EUR v sieti Ticketportal, vstup na mieste vás bude stáť 14 EUR. Kapacita je limitovaná na 400 platiacich návštevníkov.

SWALLOW THE SUN (FIN), INSOMNIUM (FIN), OMNIUM GATHERUM (FIN), GALADRIEL (SVK)
BRATISLAVA (Randal Club)
15. 12. 2009 – 18:00 (19:00)

Zdroj: www.myspace.com/apocalypsebooking

Swallow the sun

13/11/2009

Gitarové konzervatórium 5

Filed under: Konzervatórium, Návody, Všetko — Tags: , , — Spyros @ 8:08

Chcete se naučiť hrať na gitaru? Internetová televízia iDNES.tv ponúka pravidelne jeden diel výukového seriálu. Internetové konzervatórium vás odľahčenou formou zoznámi s hrou na gitaru. Budete sa zaoberať aj technikou hry a hudobnou teóriou.

Picking (vybrnkávanie)

Hammer-on a Pull-off (príklepy a odťahy)

Slide (sklzy)

Bending (vyťahovanie)

Opakovanie

09/11/2009

Line6 M-13 gitarový multiefekt recenzia

Filed under: Hudobniny, Recenzie - Aparatúra, Všetko — Tags: , , , — Dušan Giertl @ 6:42

M-13? Prvá vec čo mi napadla bola americká puška M-14 :) . Keď mi priateľ Semish napísal, že by sme mohli otestovať jeden z nových výrobok americkej firmy Line 6 pod týmto názvom. Z ponuky som si intuitívne vybral Stompbox modeler, ktorý som si ja nazval pedalboard… Tento model obsahuje, aby sme dodržali základné informácie, už existujúce stompboxy DL4, MM4, FM4, DM4 a Verbzillu. Je jasné, že veci od Line 6 sú modely existujúcich zariadení, ale treba povedať, že na veľmi vysokej úrovni.

Celý komplexný efekt je rozdelený pomyselne horizontálne a vertikálne na štyri krát štyri sektory. Horizontálne nájdeme štyri displaye, pod nimi ovládacie potenciometre, chránené oceľovými oblúkmi a tromi prepínačmi pod sebou. Vertikálne spomínané tri rady po piatich prepínačoch. Ku všetkým sa ešte dostaneme! Koho zaujímajú ešte podrobnejšie technické detaily, odkazujem ho na stránky výrobcu, kde určite všetko spoľahlivo nájde. Mne pripadá dôležitá masívny železná konštrukcia zodpovedajúca určeniu produktu na dlhodobé používanie na koncertoch a sem tam, drsnejšie zaobchádzanie, čomu sa žiaľ nedá v praxi vyhnúť. V Line 6 na to mysleli a naozaj vyrobili veľmi pevnú konštrukciu, aby chránila skvelé elektronické vnútro. Zabudol som povedať, že M13 na test ochotne zapožičal obchod MADA, kde túto perlu aj predávajú za neuveriteľnú cenu cca 15 500Sk. Na to, čo toto vie je to naozaj zadarmo!!!

Sú tam v princípe všetky efekty, ktoré poznáte. Je ich tam 75, a tak ich všetky menovať by bolo mierne otravné. Koniec koncov sa to dá prečítať na nete, ale najzaujímavejšie určite spomeniem. Už samotné zapnutie prístroja vylepší zvuk gitary. Je to zaznamenané v zvukových ukážkach. Neviem, čím to je, ale naozaj po zapnutí sa zvuk gitary na počutie vylepší. Znie plnšie a krajšie.

Zariadenie je rozdelené na skresľovaciu sekciu, ktorá na displeji svieti žltou farbou a obsahuje 24 overdrive efektov, distortionov, fuzzy, noisegate, a compressory. Od najmiernejšieho blues mierneho skreslenia až po brutal, od legendárneho Tubescreameru 808, až po Line 6 skresľovátko. Kompresory si môžete vybrať zo štyroch druhov a naozaj na každú hudbu. M13 nie je určený pre jeden žánrový druh, je to komplexný súbor efektov!

Ďalšou farbou je zelená. Tu sa skrývajú excelentné delaye a echá. Všetky možné aké len môžu byť. Od najstarších páskových deduškov po najmodernejšie digitálne delaye, ktoré toho vedia od ohromujúcich stereo efektov, cez reverzné delaye snáď všetko, čo sa na tomto poli kedy vymyslelo.

Pod červenou farbou sú priestorové hally. Od kúpeľne po kostol! Tak by som nazval možnosti v tejto sekcii. Mne sa osobne veľmi páči Spring 63, pružinový hall ako z Twinreverbu, ale všetky sú čistučké, veľmi prirodzene sa správajú aj samy a aj v kombinácii s inými efektmi.

Modrá sekcia sú modulačné efekty. Za tri kamióny chorusov, analógových, ako základná Boss CE1 cez digitály, Tri – chorus tremolo efekty ako z Fendru, tak aj z Voxu AC 15. Phasery mono aj stereo, rotary z Leslie, flangery, vibrato, či ring modulátor! Ani táto sekcia efektov veru nikoho nesklame.

Nakoniec ešte fialová sekcia Filter models. Tak toto je totálne peklo!!! Synth zvuky premenia vašu gitaru na neuveriteľné zvuky vydávajúci uragán! Je tu aj legendárny Roland GR 700 gitarový synťák, či Korg X911 Attack synth. Rovnako ako Seeker alebo Obi – wah. Dá sa pri tom stráviť hriešne veľa času a je to stále inšpiratívne.

Line6 M-13

Line6 M-13 Stompbox Modeler. (Kliknite na obrázok pre plnú veľkosť.)

Ako to celé funguje? No musel som Vittoreho poprosiť aby sa to naučil ovládať a potom ma zaučil. Je to tak jednoduché, že som to zvládol aj ja okamžite! Týchto päť efektových sekcií si pomocou hlavného selektívneho potenciometra stláčaním navolíme do svojho efektového reťazca, vždy po štyroch, a to v možnostiach A B C. V praxi je to tak, že spodná rada štyroch prepínačov je rad A, kde si navolíte trebárs poradie zľava – žltá sekcia a z nej Tubescreamer 808, potom zelená sekcia a z nej Memory man delay, z červenej spomínaný Spring 63 a na koniec chorus CE1. takto máte svoj rad efektov a takto zostane, kým ho nezmeníte. Pre mňa je obrovskou výhodou. Že všetky efekty ovládate otočnými potenciometrami a to sa zobrazuje na displeji, a že nemusím chodiť do nejakých tlačítkových nastavení a hrabať sa v edite a do nekonečna klovať do plusu a mínusu, pričom sa desať krát stratím, kde som! Toto si točíte tak ako na obyčajnom efekte čo máte doma!

V rade B, ktorá je nad radou A si vytvoríte iný reťazec v inom poradí efektov a podobne je to s radou C. tri reťazce efektov bohato stačia na používanie M13 na koncertoch. O využití v štúdiu ani nehovorím, už sa teším na najbližšie nahrávanie!!! A je samozrejmosťou že môžete používať aj v rade A efekt z rady B, pričom sa ten z rady A vypne. Fantastické.

M13 samozrejme obsahuje veľmi presnú ladičku, ktorú vyvoláte dlhým podržaním tlačítka TAP, a to slúži na časovanie efektov v reálnom čase, Napríklad dvojitým stlačením získate delay time.

Táto šikovná mašinka sa dá k zosilovaču alebo ešte lepšie zosilovačom, pripojiť rôznymi spôsobmi. Okrem štandardného zapojenia napriamo do vstupov s komplet efektmi, existujú ešte FX send aj return stereo vstupy a výstupy. Nimi sa dá do efektových slučiek na zosilovačoch posielať signál napríklad modulačných, či priestorových efektov a skresľovacie efekty idú priamo do vstupu. Je to vymyslené úplne dokonalo!

Budoval so svoj pedalboard asi tri roky, kým som zohnal všetko tak ako som chcel, všetky tie staré originály zo 70 a 80 rokov hrajú úžasne, ale žiaľ v ničom nepredbehnú M13. Tie efekty v ňom sú dokonalé! Mám napríklad Memory man od EH, a keďže je aj v M13 porovnal som a výsledok je totálna zhoda a ktorý efekt práve hrá myslím, že nerozozná nikto na tomto svete…

Úplne naplno sa M13 rozvinie pri stereo použití. Vtedy sa efekty rozoznejú naplno a sú naozaj efektné. Aj verzia mono nič nestráca a hrá to tak ako má a je to prudko návykové! Niektoré efekty si vyžadujú aj ovládanie v reálnom čase, ako napríklad wah, či volume. Na toto slúžia pripojiteľné externé pedály. Nie sú však súčasťou balenia M13.

Nikdy by mi nenapadlo, že ma zaujme looper!!! Kamoš si kúpil looper od Bossu a po tyždenom štúdiu ako to funguje, sa to zabalilo a leží na skrini. Tento looper som sa naučil ovládať za tri sekundy. Hráte a jedným zošliapnutím nahrávate a druhým prehrávate. Skúšal som nahrať na seba takto šesť signálov a znie to úžasne. Potom sa s tým môžete zabávať a nahranú slučku si púšťate v reálnom čase, v polovičnom tempe a dokonca aj v spätnom chode. Vznikajú veľmi zaujímavé zvukové útvary!!!! Mám pár kamošov, čo sú principiálni odporcovia akýchkoľvek efektov. Aj tí uznali, že toto má naozaj zvuk!!!

Je to ale určené na živé hranie a tak som do doma trošku nastavil a zobral na akciu. Tu sa výhody M13 prejavili naplno! Taký neskutočný zvuk som nečakal ani ja sám. Zobral som si dve gitary Fender Stratocaster standard a Tele 52. Dve MV3 zosilovače a táto kombinácia žiarila. Gitary hrali tak ako mali, zvuk bol zapasovaný do hudby, sóla mali presnú hlasitosť aj farbu, všetko bolo čitateľné a bavilo ma hrať. Aj kolegovia svorne uznali, že gitary hrali veľmi pekne. Zvukové ukážky, to bol problém! Keby som chcel M13 úplne predstaviť, musel by som nahrať stovky ukážok. A aj to by bolo asi málo pre obsiahnutie všetkých možností tohto super stroja.

Hľadal som dva týždne, čo mám M13 doma nejakú chybu a musím priznať, že som ju nenašiel. Nemám nič spoločné s firmou Line 6, a ani v obchode MADA vôbec nikoho nepoznám, ono to je naozaj take skvelé!

06/11/2009

Gitarové konzervatórium 4

Filed under: Konzervatórium, Návody, Všetko — Tags: , , — Spyros @ 8:00

Chcete se naučiť hrať na gitaru? Internetová televízia iDNES.tv ponúka pravidelne jeden diel výukového seriálu. Internetové konzervatórium vás odľahčenou formou zoznámi s hrou na gitaru. Budete sa zaoberať aj technikou hry a hudobnou teóriou.

Pokročilá bluesová dvanástka

Pentatonická stupnica

A-moll pentatonická stupnica

Frázovanie, ťažká a ľahká doba

Opakovanie

05/11/2009

O2 Sázavafest chystá ohlášení hudební soutěže, výhodný předprodej i otevření restaurace Festovka

Filed under: Hudba, Novinky, Všetko — Tags: , , — StyriOci @ 23:36

Festival O2Sázavafest chystá ohlášení hudební soutěže, výhodný předprodej i otevření restaurace Festovka

Na Podzimním O2Sázavafestu, který se uskuteční v sobotu 7. listopadu v pražském klubu Abaton, se návštěvníci mohou těšit nejen na tradiční žánrově barevný line-up, ale také na informace o tradiční soutěži festivalu s názvem O2Sázavafest Battle. Ta nabízí možnost kapelám i sólistům zahrát si na největším tuzemském multižánrovém festivalu a získat zajímavé ceny pro muzikanty.

O2Sázavafest Battle hlásí novinky

I v následujícím ročníku soutěž O2Sázavafest Battle bude pořádaná společně s hudebním serverem Muzikus.cz, Soutěžící si zde může založit svůj profil, nahrát mp3 a přihlásit se tak do soutěže. Soutěž stejně jako v předchozích letech nebude omezena žánrově, národnostně, ani počtem natočených desek. Zásadní podmínkou je ovšem autorská tvorba.

Ke změně v pravidlech soutěže by mělo dojít zejména v datu ukončení přihlášek. Zájemci by se měli přihlásit nejpozději do 31. ledna. „Datum ukončení přijímání přihlášek jsme nastavili tak, aby si v příštím roce mohlo šest nejlepších zahrát už začátkem dubna na naší jarní verzi festivalu. Tři finalisté si pak zahrají i na openairu v Kácově,“ vysvětlil změnu Pavel Kloupar, ředitel festivalu. Kromě zviditelnění na jednom z největších českých festivalů vítěz soutěže získá AKG handheld vysílač s mikrofonem v hodnotě 15 000 korun, ostatní finalisté pak obdrží ceny od centra pro muzikanty MUSIC CITY celkem za 14 000 korun.

Výhodný předprodej

Pravidelní návštěvníci Letního O2 Sázavafestu jistě potěší informace o výhodném předprodeji limitované edice vstupenek za 500 korun, které se dostanou do předprodejní sítě Ticketpro už 19. listopadu.

Jak jde dohromady restaurace a festival?

Od zahájení předprodeje vstupenek na 10. ročník Letního O2 Sázavafestu, tedy čtvrtka 19. 11., dojde k oficiálnímu otevření restaurace Festovka na Letné. Toto zařízení bude sloužit jako festivalová klubovna. „Bude zde kniha přání a stížností, kam může každý napsat, co by rád v Kácově měl, či neměl, budou se zde pořádat autogramiády a podávat festivalové pochutiny. Kdo dorazí v tento den, bude moc vychutnat první sud do vypití zdarma, v pátek 20. 11. si bude moci zasoutěžit o festivalové ceny,“ dodal Pavel Kloupar.

Podzimní O2Sázavafest s řadou zajímavostí za dveřmi

Ačkoliv podzimní verze O2 Sázavafestu je oprosti několikadennímu letnímu festivalu v Kácově stále malý bráška, pořadatelé zajistili pro letošní ročník Podzimního O2 Sázavafestu několik zajímavostí. Se svým akustickým setem s písničkami z nového alba se 7. listopadu v Abatonu ukáže Marek Ztracený, kterého o něco později na hlavní scéně vystřídá jeho kolega, také mladý písničkář Tomáš Klus, jehož poslední dva koncerty v Praze byly zcela vyprodány.

Mezi další zajímavost Podzimního O2 Sázavafestu patří jediné vystoupení pražského tria Ohm Square, které všechna svá ostatní vystoupení do konce roku odvolalo z důvodu vytíženosti kapely. Současně se předpokládá, že Ohm Square, jejichž hudba se objevila například ve filmech Samotáři, Divoké včely, O rodičích a dětech nebo Děvčátko, v sobotu 7. listopadu v Abatonu představí zbrusu novou skladbu.

Dalšími účinkujícími jsou například ska formace Basta Fidel, Prague Ska Conspiracy a Sto zvířat. Kytarovou muziku zastoupí například pražské pop-rockové party Bek Ofis, Loyca nebo punkáči Volat a Totální nasazení.

Pro prvních 700 návštěvníků, kteří přijdou na festival, bude stejně jako na letošním jarním vydání festivalu připraven speciální welcome drink Bubble mix od partnera festivalu O2.

Více na www.sazavafest.cz.

04/11/2009

Limp Bizkit – Take A Look Around (Taby)

Filed under: Skladby, Taby, Všetko — Tags: , , — Spyros @ 7:11

Známa skladba z kinohitu Tom Cruisea Mission Impossible 2 je zároveň 3. singlom z albumu Chocolate Starfish and the Hot Dog Flavored Water z roku 2000. V tomto čase boli Limp Bizkit na vrchole slávy, čo potvrdili aj ziskom Grammy za tento album.

Gitarista Wes Borland hrá v originále na sedemstrunovú gitaru. V našich taboch je použitá konverzia pre normálnu gitaru podladenú tzv. Dropped Db, čiže najhrubšiu strunu E podladíme do D a celé ladenie podladíme ešte o pol tón. Prikladáme aj zápis v štandardnom ladení, takže hneď uvidíte o čo jednoduchšie sa hrá hlavný riff na podladenej gitare.

Skladba je jednoduchá a krátka, takže sa našlo miesto aj na basovú linku.

Text

TAKE A LOOK AROUND
Limp Bizkit - Chocolate Starfish and the Hot Dog Flavored Water 2000

Sloha 1:

4 x Riff 1
    Riff 2  All the tension in the world today,
            all the little girls filling up the world today
            When the good comes to bad the bad comes to good,
            but I'm'on live my life like a should
    Riff 2  Now all the critics wanna hit it, and shitcan
            how we did it just because they don't get it
            But I'll stay fitted new error committed,
            now this red cap gets a rap from his critics
    Riff 1  And do we always gotta cry, do we always hafta live inside a lie
            Life's just a blast and it's moving really fast,
            you better stay on top or life'll kick you in the ass
    Riff 2  Follow me in to a solo, remember that kid so whatcha wanna do
            Where you gonna run when you staring down
            the cable of my fucking mic pointed at your grill like a gun
    Riff 2  Limp Bizkit is rockin' the set,
            it's like Russian Roulette when you're placing your bet
            So don't be upset when you're broke and you're done,
            cause I'm'on be the one until I jet

Refrén:            

    Riff 3  I know why you wanna hate me (3x),
            'cause hate is all the world has even seen lately
    Riff 3  (Now) I know why you wanna hate me (3x)
            'cause hate is all the world has even seen lately
2 x Riff 3  ...And now you wanna hate me,
            'cause hate is all the world has even seen lately (2x)

Sloha 2:

   Riff 1b
    Riff 2  Does anybody really know the secret,
            or the combination for this life and where they keep it
            It's kinda sad when you don't know the meaning,
            but everything happens for a reason
    Riff 2  I don't even know what I should say,
            'cause I'm an idiot a loser a microphone abuser
            I analyze every second I exist,
            beatin' up my mind every second with my fist
    Riff 2  And everybody wanna run, everybody wanna hide from the gun
            You can take a ride through this life if you want,
            but you cant take the edge off the knife no sir
    Riff 2  And now you want your money back,
            but you're denied 'cause your brain's fried from the sack
            And there ain't nothin' I can do,
            'cause life is a lesson you learn it when you're through

Refrén:            

    Riff 3  I know why you wanna hate me (3x),
            'cause hate is all the world has even seen lately
    Riff 3  (Now) I know why you wanna hate me (3x)
            'cause hate is all the world has even seen lately
2 x Riff 3  ...And now you wanna hate me,
            'cause hate is all the world has even seen lately (2x)
   Riff 3b
2 x Riff 4  //actually this is played by the bass,
            but if you don't want to leave it out, then P.M. it.//
 2xRiff 4a  Now... I... know... why... (2x)
2 x Riff 4  //play it this time//  Now... I... know... why...  (2x)
2 x Riff 3  Now I know why you wanna hate me (3x),
            'cause hate is all the world has even seen lately
    Riff 3  ...'Cause hate is all the world has even seen lately (2x)
? x Riff 2  //fade out//

Dropped Db

TAKE A LOOK AROUND
Limp Bizkit - Chocolate Starfish and the Hot Dog Flavored Water 2000

Riff 1

Eb -----------------|-----------------|-----------------|---------------|
Bb -----------------|-----------------|-----------------|---------------|
Gb -----------------|-----------------|-----------------|---------------|
Db -----------5-7p5-|-----------------|-----------5-7p5-|---------------|
Ab -7-7-7-7-7-------|--7-7-7-7-7-5-6--|-7-7-7-7-7-------|-7-7-7-7-7-5-6-|
Db -----------------|-----------------|-----------------|---------------|

                (a) |-----------------|
                    |-----------------|
                    |-----------------|
                    |-----------5-7p5-|
                    |-7-7-7-7-7-------|
                    |-----------------|

Riff 2

Eb -15-12----|-15-12----|-15-12----|-15-12----------------------|
Bb -------12-|-------11-|-------10-|-------13-13-13-13-13p12-12-|
Gb ----------|----------|----------|----------------------------|
Db ----------|----------|----------|----------------------------|
Ab ----------|----------|----------|----------------------------|
Db ----------|----------|----------|----------------------------|

Riff 3

Eb ---------------------|---------------------|---------------------|---------------------|
Bb ---------------------|---------------------|---------------------|---------------------|
Gb ---------------------|---------------------|---------------------|---------------------|
Db ---------------------|---------------------|---------------------|---------------------|
Ab -0h2-0h2-0h2-0h2-5-7-|-0h2-0h2-0h2-0h2-0-1-|-0h2-0h2-0h2-0h2-5-7-|-0h2-0h2-0h2-0h2-0-1-|
Db -0h2-0h2-0h2-0h2-5-7-|-0h2-0h2-0h2-0h2-0-1-|-0h2-0h2-0h2-0h2-5-7-|-0h2-0h2-0h2-0h2-0-1-|

short (a): --2-2-5-7--|--2-2-0-1--|  etc.

Riff 4

Eb ---------------|-------------|---------------|-------------|
Bb ---------------|-------------|---------------|-------------|
Gb ---------------|-------------|---------------|-------------|
Db ---------5-7p5-|-------------|---------5-7p5-|-------------|
Ab -7-7-7-7-------|-7-7-7-7-5-6-|-7-7-7-7-------|-7-7-7-7-5-6-|(a)

Db -2-2-2-2-5-7p5-|-2-2-2-2-0-1-|-2-2-5-7p5-2-2-|-2-2-2-2-0-1-|

Riff 4a is EXTREMELY SOFT.

Štandardné ladenie

TAKE A LOOK AROUND
Limp Bizkit - Chocolate Starfish and the Hot Dog Flavored Water 2000

Chorus x4 with heavy distortion
e-------------------------------------------------------------------------
B-------------------------------------------------------------------------
G---------------------------3--5------------------------------------------
D---5-5---5-5---5-5---5-5---3--5--5-5---5-5---5-5---5-5---3--4------------
A---5-5---5-5---5-5---5-5---1--3--5-5---5-5---5-5---5-5---3--4------------
E---3-3---3-3---3-3---3-3---------3-3---3-3---3-3---3-3---1--2------------

Tab pre basgitaru

TAKE A LOOK AROUND
Limp Bizkit - Chocolate Starfish and the Hot Dog Flavored Water 2000

Rest for 10 seconds
Riff 1:Come in at 11 Seconds (play twice drums come in on the second time)

      W   W   W    W
G||--------------------------------------------------|
D||-------4------------------------------------------|
A||--6---------2-----4-------------------------------|
E||--------------------------------------------------|

Riff 2 

G||--------------------------------------------------|
D||------------44444444---------------------66--44---|
A||--66666666-------------22222222----444444---------|
E||--------------------------------------------------|

Riff 3

G||--------------------------------------------------|
D||---------------4-6--------------------------------|
A||------6-6-6-6--------6-6-6-6---4-5----------------|
E||--------------------------------------------------|

Riff 4

G||-------------------|
D||------4-6----------|
A||--6-6-----6-6--4-5-|
E||-------------------|

Ako uspokojiť ženu gitarou

Filed under: Humor, Všetko, Články — Tags: , , , — StyriOci @ 1:41

Pre tých, ktorím nežné polovíčky stále vyčítajú, že im kvôli hraniu na gitare nevenujú dostatok času, máme riešenie, ako ich uspokojiť a zabiť dve muchy jednou ranou :) .

Riešenie ponúka firma OhMiBod, s príznačným sloganom “Feel The Music“, a ich pomôckami pre ženy, ktoré reagujú na hudbu. Netreba vynaložiť veľa námahy, aby vaša drahá polovička dokázala spolu s vami precítiť každý tón, či sólo, veď posúďte sami :)

Foto a detailnejšie info na stránkach www.notcot.com.

31/10/2009

Weezer – The Angel And The One (Taby)

Filed under: Skladby, Taby, Všetko — Tags: , , — Spyros @ 9:46

Posledný track z červeného albumu, ktorý dosiahol až na 4. pozíciu v americkom rebríčku Billboard, je akýmsi pokračovanim epických skladieb typu Only in Dreams. Rivers Cuomo zložil skladbu na základe jednoduchého hudobného motívu, ktorý používa cez celú skladbu a jeho skladateľstvo je tým už povestné.

Podľa bubeníka Pata Wilsona je to ich najlepšia skladba na albume, aj keď singlami sa napokon stali Pork and Beans, Troublemaker a The Greatest Man That Ever Lived (Variations on a Shaker Hymn). Producentom skladby je legendárny Rick Rubin a samozrejme Weezer.

Tento týždeň príde na trh nový album Ratitude. Novinku podporuje nový singel (If You’re Wondering If I Want You To) I Want You To.

Weezer hrajú svoje pesníčky štandardne v podladení pol tóna na všetkých strunách eb, Bb, Gb, Db, Ab, Eb.

Text

THE ANGEL AND THE ONE
Weezer - Red Album 2008

Sloha 1:

   It's not my destiny to be the one that you will lay with
   So many reasons why I have to go but want to stay here
   Sometimes I want a taste but then I don't know what I'm saying
   You are the angel and I am the one that is praying

Sloha 2:

   There is another love that I would rather be obeying
   I see the ecstasy and already I'm anticipating
   I feel a deeper peace and that deeper peace is penetrating
   I've got the magic in me, I am complete is what I'm saying

Refrén 1:

   I'm flying up so high, my purple majesty displaying
   I've reached a higher place that noone else can make a claim in

Refrén 2:

   I'll take you there my friend I'm reaching out my hand, so take it
   We are the angels, and we are the ones that are praying

Záver:

   Peace, shalom, peace, shalom
   Peace, peace
   Peace, shalom, peace, shalom
   Peace, peace

Taby

Sloha 1 a 2:

      Guitar 1 (Clean or lightly distorted)
   eb|-----------------------------------------------------------|
   Bb|-----------------------------------------------------------|
   Gb|--------------------2--------2--------2--------------------|
   Db|--3--------3--------0--------0--------3--------3--3-----3--|
   Ab|--3--------3--------0--------3--------1--------1--0--5--0--|
   Eb|--1--------0-----------------------------------------3-----|
   This part is repeated clean up until 2:20. 

Sloha 2:

   Guitar 2 (Lightly Distorted) - 1:49 - I feel a deeper peace...
   eb|-----------------------------------------------------------|
   Bb|-----------------------------------------------------------|
   Gb|--14-14--14-14-14--14--14--14-14-14--14--14-14-14--14--14--|
   Db|--15-15--15-15-15--15--15--15-15-15--15--15-15-15--15--15--|
   Ab|-----------------------------------------------------------|
   Eb|-----------------------------------------------------------|

   eb|-----------------------------------------------------------|
   Bb|-----------------------------------------------------------|
   Gb|--14--14-14-14--14--14--14-14--17--17--17-17--17-17--17-17-|
   Db|--15--15-15-15--15--15--15-15--15--15--15-15--15-15--15-15-|
   Ab|-----------------------------------------------------------|
   Eb|-----------------------------------------------------------|

   eb|-----------------------------------------------------------|
   Bb|-----------------------------------------------------------|
   Gb|--14--14--14--14--14-14--14-14--14--14-14-14--14--14--14-14|
   Db|--15--15--15--15--15-15--15-15--15--15-15-15--15--15--15-15|
   Ab|-----------------------------------------------------------|
   Eb|-----------------------------------------------------------|

   Guitar 2 (Lightly Distorted) - 2:14 - koniec slohy a prechod k refrénu
   eb|-----------------------------------------------------------|
   Bb|-----------------------------------------------------------|
   Gb|-17--17--17-17-14--14-14--14--14-14-14-14--14-17--17--17-17|
   Db|-15--15--15-15-15--15-15--15--15-15-15-15--15-15--15--15-15|
   Ab|-----------------------------------------------------------|
   Eb|-----------------------------------------------------------|

   eb|-----------------------------------------------------------|
   Bb|-----------------------------------------------------------|
   Gb|-14--14----------------------------------------------------|
   Db|-15--15----------------------------------------------------|
   Ab|-----------------------------------------------------------|
   Eb|-----------------------------------------------------------|

Refrén:

   Guitar 1 (Distorted) - 2:20
   eb|------------------------------------------------------------------|
   Bb|------------------------------------------------------------------|
   Gb|------------------------------------------------------------------|
   Db|--10--10----10--10----7--7----5--5----8--8---------8----8--8------|
   Ab|---8---8-----7---7----5--5----3--3----8--8---------8----8--8------|
   Eb|---8---8-----7---7----5--5----3--3----6--6---------6----6--6------|
   **********************************************************************
   eb|------------------------------------------------------------------|
   Bb|------------------------------------------------------------------|
   Gb|-------------------------------------------17-17-17--14-14-14-14--|
   Db|-------------------------------------------15-15-15--15-15-15-15--|
   Ab|------------------------------------------------------------------|
   Eb|------------------------------------------------------------------|

   Guitar 1 & Guitar 2
   eb|----------------------------------------------------------------|
   Bb|----------------------------------------------------------------|
   Gb|----------------------------------------------------------------|
   Db|--10--10----10--10----7--7----5--5----8~----8----7----5----7----|
   Ab|---8---8-----7---7----5--5----3--3----8~----8----7----5----7----|
   Eb|---8---8-----7---7----5--5----3--3----6~----6----5----3----5----|

   eb|----------------------------------------------------------------|
   Bb|----------------------------------------------------------------|
   Gb|----------------------------------------------------------------|
   Db|--10--10----10--10----7--7----5--5----8~----8----7----5----7-5b-|
   Ab|---8---8-----7---7----5--5----3--3----8~----8----7----5----7----|
   Eb|---8---8-----7---7----5--5----3--3----6~----6----5----3----5----|

   eb|----------------------------------------------------------------|
   Bb|----------------------------------------------------------------|
   Gb|----------------------------------------------------------------|
   Db|--10--10----10--10----7--7----5--5----8~----8----7----5----7----|
   Ab|---8---8-----7---7----5--5----3--3----8~----8----7----5----7----|
   Eb|---8---8-----7---7----5--5----3--3----6~----6----5----3----5----|

   eb|----------------------------------------------------------------|
   Bb|----------------------------------------------------------------|
   Gb|----------------------------------------------------------------|
   Db|--10--10----10--10----7--7----5--5----8-8-8-8-8--8-8-8-8-8------|
   Ab|---8---8-----7---7----5--5----3--3----8-8-8-8-8--8-8-8-8-8------|
   Eb|---8---8-----7---7----5--5----3--3----6-6-6-6-6--6-6-6-6-6------|

   eb|--------------------|
   Bb|--------------------|
   Gb|--------------------|
   Db|--8----7----5----7--|
   Ab|--8----7----5----7--|
   Eb|--6----5----3----5--|

Záver:

   (3:55)
   eb|------------------------------------------------------------------------|
   Bb|------------------------------------------------------------------------|
   Gb|------------------------------------------------------------------------|
   Db|-10--10---10--10---7--7---5--5---8-8-8-8-8--8-8-8-8-8---8---7---5---7---|
   Ab|--8---8----7---7---5--5---3--3---8-8-8-8-8--8-8-8-8-8---8---7---5---7---|
   Eb|--8---8----7---7---5--5---3--3---6-6-6-6-6--6-6-6-6-6---6---5---3---5---|
   ****************************************************************************
   eb|20-------------22\-20--20--18-17---17-15--13-15---------17-15-13-15-----|
   Bb|-x--------------x---x---x---x--x----x--x---x--x----------x--x--x--x-----|
   Gb|17-------------19\-17--17--15-14---14-12--10-12---------14-12-10-12-----|
   Db|------------------------------------------------------------------------|
   Ab|------------------------------------------------------------------------|
   Eb|------------------------------------------------------------------------|

   eb|------------------------------------------------------------------------|
   Bb|------------------------------------------------------------------------|
   Gb|------------------------------------------------------------------------|
   Db|-10--10--10--10--7--7--5--5--8-8-8-8-8--8-8-8-8-8---8---7---5---7-------|
   Ab|--8---8---7---7--5--5--3--3--8-8-8-8-8--8-8-8-8-8---8---7---5---7-------|
   Eb|--8---8---7---7--5--5--3--3--6-6-6-6-6--6-6-6-6-6---6---5---3---5-------|
   ****************************************************************************
   eb|--20~~~~-----22\-20-20-18-17-17-15--13-15----------17-15-13-15--17-13~~~|
   Bb|---x~~~~------x---x--x--x--x--x--x---x--x-----------x--x--x--x---x--x~~~|
   Gb|--17~~~~-----19\-17-17-15-14-14-12--10-12----------14-12-10-12--14-10~~~|
   Db|------------------------------------------------------------------------|
   Ab|------------------------------------------------------------------------|
   Eb|------------------------------------------------------------------------|
« Newer PostsOlder Posts »

Powered by WordPress