MUSICREPORT.SK

04/11/2009

Limp Bizkit – Take A Look Around (Taby)

Filed under: Skladby, Taby, Všetko — Tags: , , — Spyros @ 7:11

Známa skladba z kinohitu Tom Cruisea Mission Impossible 2 je zároveň 3. singlom z albumu Chocolate Starfish and the Hot Dog Flavored Water z roku 2000. V tomto čase boli Limp Bizkit na vrchole slávy, čo potvrdili aj ziskom Grammy za tento album.

Gitarista Wes Borland hrá v originále na sedemstrunovú gitaru. V našich taboch je použitá konverzia pre normálnu gitaru podladenú tzv. Dropped Db, čiže najhrubšiu strunu E podladíme do D a celé ladenie podladíme ešte o pol tón. Prikladáme aj zápis v štandardnom ladení, takže hneď uvidíte o čo jednoduchšie sa hrá hlavný riff na podladenej gitare.

Skladba je jednoduchá a krátka, takže sa našlo miesto aj na basovú linku.

Text

TAKE A LOOK AROUND
Limp Bizkit - Chocolate Starfish and the Hot Dog Flavored Water 2000

Sloha 1:

4 x Riff 1
    Riff 2  All the tension in the world today,
            all the little girls filling up the world today
            When the good comes to bad the bad comes to good,
            but I'm'on live my life like a should
    Riff 2  Now all the critics wanna hit it, and shitcan
            how we did it just because they don't get it
            But I'll stay fitted new error committed,
            now this red cap gets a rap from his critics
    Riff 1  And do we always gotta cry, do we always hafta live inside a lie
            Life's just a blast and it's moving really fast,
            you better stay on top or life'll kick you in the ass
    Riff 2  Follow me in to a solo, remember that kid so whatcha wanna do
            Where you gonna run when you staring down
            the cable of my fucking mic pointed at your grill like a gun
    Riff 2  Limp Bizkit is rockin' the set,
            it's like Russian Roulette when you're placing your bet
            So don't be upset when you're broke and you're done,
            cause I'm'on be the one until I jet

Refrén:            

    Riff 3  I know why you wanna hate me (3x),
            'cause hate is all the world has even seen lately
    Riff 3  (Now) I know why you wanna hate me (3x)
            'cause hate is all the world has even seen lately
2 x Riff 3  ...And now you wanna hate me,
            'cause hate is all the world has even seen lately (2x)

Sloha 2:

   Riff 1b
    Riff 2  Does anybody really know the secret,
            or the combination for this life and where they keep it
            It's kinda sad when you don't know the meaning,
            but everything happens for a reason
    Riff 2  I don't even know what I should say,
            'cause I'm an idiot a loser a microphone abuser
            I analyze every second I exist,
            beatin' up my mind every second with my fist
    Riff 2  And everybody wanna run, everybody wanna hide from the gun
            You can take a ride through this life if you want,
            but you cant take the edge off the knife no sir
    Riff 2  And now you want your money back,
            but you're denied 'cause your brain's fried from the sack
            And there ain't nothin' I can do,
            'cause life is a lesson you learn it when you're through

Refrén:            

    Riff 3  I know why you wanna hate me (3x),
            'cause hate is all the world has even seen lately
    Riff 3  (Now) I know why you wanna hate me (3x)
            'cause hate is all the world has even seen lately
2 x Riff 3  ...And now you wanna hate me,
            'cause hate is all the world has even seen lately (2x)
   Riff 3b
2 x Riff 4  //actually this is played by the bass,
            but if you don't want to leave it out, then P.M. it.//
 2xRiff 4a  Now... I... know... why... (2x)
2 x Riff 4  //play it this time//  Now... I... know... why...  (2x)
2 x Riff 3  Now I know why you wanna hate me (3x),
            'cause hate is all the world has even seen lately
    Riff 3  ...'Cause hate is all the world has even seen lately (2x)
? x Riff 2  //fade out//

Dropped Db

TAKE A LOOK AROUND
Limp Bizkit - Chocolate Starfish and the Hot Dog Flavored Water 2000

Riff 1

Eb -----------------|-----------------|-----------------|---------------|
Bb -----------------|-----------------|-----------------|---------------|
Gb -----------------|-----------------|-----------------|---------------|
Db -----------5-7p5-|-----------------|-----------5-7p5-|---------------|
Ab -7-7-7-7-7-------|--7-7-7-7-7-5-6--|-7-7-7-7-7-------|-7-7-7-7-7-5-6-|
Db -----------------|-----------------|-----------------|---------------|

                (a) |-----------------|
                    |-----------------|
                    |-----------------|
                    |-----------5-7p5-|
                    |-7-7-7-7-7-------|
                    |-----------------|

Riff 2

Eb -15-12----|-15-12----|-15-12----|-15-12----------------------|
Bb -------12-|-------11-|-------10-|-------13-13-13-13-13p12-12-|
Gb ----------|----------|----------|----------------------------|
Db ----------|----------|----------|----------------------------|
Ab ----------|----------|----------|----------------------------|
Db ----------|----------|----------|----------------------------|

Riff 3

Eb ---------------------|---------------------|---------------------|---------------------|
Bb ---------------------|---------------------|---------------------|---------------------|
Gb ---------------------|---------------------|---------------------|---------------------|
Db ---------------------|---------------------|---------------------|---------------------|
Ab -0h2-0h2-0h2-0h2-5-7-|-0h2-0h2-0h2-0h2-0-1-|-0h2-0h2-0h2-0h2-5-7-|-0h2-0h2-0h2-0h2-0-1-|
Db -0h2-0h2-0h2-0h2-5-7-|-0h2-0h2-0h2-0h2-0-1-|-0h2-0h2-0h2-0h2-5-7-|-0h2-0h2-0h2-0h2-0-1-|

short (a): --2-2-5-7--|--2-2-0-1--|  etc.

Riff 4

Eb ---------------|-------------|---------------|-------------|
Bb ---------------|-------------|---------------|-------------|
Gb ---------------|-------------|---------------|-------------|
Db ---------5-7p5-|-------------|---------5-7p5-|-------------|
Ab -7-7-7-7-------|-7-7-7-7-5-6-|-7-7-7-7-------|-7-7-7-7-5-6-|(a)

Db -2-2-2-2-5-7p5-|-2-2-2-2-0-1-|-2-2-5-7p5-2-2-|-2-2-2-2-0-1-|

Riff 4a is EXTREMELY SOFT.

Štandardné ladenie

TAKE A LOOK AROUND
Limp Bizkit - Chocolate Starfish and the Hot Dog Flavored Water 2000

Chorus x4 with heavy distortion
e-------------------------------------------------------------------------
B-------------------------------------------------------------------------
G---------------------------3--5------------------------------------------
D---5-5---5-5---5-5---5-5---3--5--5-5---5-5---5-5---5-5---3--4------------
A---5-5---5-5---5-5---5-5---1--3--5-5---5-5---5-5---5-5---3--4------------
E---3-3---3-3---3-3---3-3---------3-3---3-3---3-3---3-3---1--2------------

Tab pre basgitaru

TAKE A LOOK AROUND
Limp Bizkit - Chocolate Starfish and the Hot Dog Flavored Water 2000

Rest for 10 seconds
Riff 1:Come in at 11 Seconds (play twice drums come in on the second time)

      W   W   W    W
G||--------------------------------------------------|
D||-------4------------------------------------------|
A||--6---------2-----4-------------------------------|
E||--------------------------------------------------|

Riff 2 

G||--------------------------------------------------|
D||------------44444444---------------------66--44---|
A||--66666666-------------22222222----444444---------|
E||--------------------------------------------------|

Riff 3

G||--------------------------------------------------|
D||---------------4-6--------------------------------|
A||------6-6-6-6--------6-6-6-6---4-5----------------|
E||--------------------------------------------------|

Riff 4

G||-------------------|
D||------4-6----------|
A||--6-6-----6-6--4-5-|
E||-------------------|
VN:F [1.6.2_892]
Hodnotenie čitateľov
Rating: 0.0/5 (0 votes cast)

No Comments »

No comments yet.

RSS feed for comments on this post.

Leave a comment

Powered by WordPress